  0
SECTION
  2
HEADER
  9
$ACADVER
  1
AC1015
  9
$ACADMAINTVER
 70
     6
  9
$DWGCODEPAGE
  3
ANSI_1254
  9
$INSBASE
 10
0.0
 20
0.0
 30
0.0
  9
$EXTMIN
 10
0.0
 20
0.0
 30
0.0
  9
$EXTMAX
 10
279.4
 20
215.9
 30
0.0
  9
$LIMMIN
 10
0.0
 20
0.0
  9
$LIMMAX
 10
279.4
 20
215.9
  9
$ORTHOMODE
 70
     0
  9
$REGENMODE
 70
     1
  9
$FILLMODE
 70
     1
  9
$QTEXTMODE
 70
     0
  9
$MIRRTEXT
 70
     1
  9
$LTSCALE
 40
1.0
  9
$ATTMODE
 70
     1
  9
$TEXTSIZE
 40
3.5
  9
$TRACEWID
 40
1.0
  9
$TEXTSTYLE
  7
Standard
  9
$CLAYER
  8
0
  9
$CELTYPE
  6
ByLayer
  9
$CECOLOR
 62
   256
  9
$CELTSCALE
 40
1.0
  9
$DISPSILH
 70
     0
  9
$DIMSCALE
 40
1.0
  9
$DIMASZ
 40
3.5
  9
$DIMEXO
 40
1.0
  9
$DIMDLI
 40
3.75
  9
$DIMRND
 40
0.0
  9
$DIMDLE
 40
0.0
  9
$DIMEXE
 40
1.0
  9
$DIMTP
 40
0.0
  9
$DIMTM
 40
0.0
  9
$DIMTXT
 40
3.5
  9
$DIMCEN
 40
2.5
  9
$DIMTSZ
 40
0.0
  9
$DIMTOL
 70
     0
  9
$DIMLIM
 70
     0
  9
$DIMTIH
 70
     1
  9
$DIMTOH
 70
     1
  9
$DIMSE1
 70
     0
  9
$DIMSE2
 70
     0
  9
$DIMTAD
 70
     1
  9
$DIMZIN
 70
     0
  9
$DIMBLK
  1

  9
$DIMASO
 70
     1
  9
$DIMSHO
 70
     1
  9
$DIMPOST
  1

  9
$DIMAPOST
  1

  9
$DIMALT
 70
     0
  9
$DIMALTD
 70
     3
  9
$DIMALTF
 40
0.0393700787
  9
$DIMLFAC
 40
1.0
  9
$DIMTOFL
 70
     1
  9
$DIMTVP
 40
0.0
  9
$DIMTIX
 70
     0
  9
$DIMSOXD
 70
     0
  9
$DIMSAH
 70
     0
  9
$DIMBLK1
  1

  9
$DIMBLK2
  1

  9
$DIMSTYLE
  2
ISO-25
  9
$DIMCLRD
 70
     0
  9
$DIMCLRE
 70
     0
  9
$DIMCLRT
 70
     0
  9
$DIMTFAC
 40
1.0
  9
$DIMGAP
 40
1.524
  9
$DIMJUST
 70
     0
  9
$DIMSD1
 70
     0
  9
$DIMSD2
 70
     0
  9
$DIMTOLJ
 70
     0
  9
$DIMTZIN
 70
     0
  9
$DIMALTZ
 70
     0
  9
$DIMALTTZ
 70
     0
  9
$DIMUPT
 70
     0
  9
$DIMDEC
 70
     2
  9
$DIMTDEC
 70
     2
  9
$DIMALTU
 70
     2
  9
$DIMALTTD
 70
     3
  9
$DIMTXSTY
  7
Standard
  9
$DIMAUNIT
 70
     0
  9
$DIMADEC
 70
     2
  9
$DIMALTRND
 40
0.0
  9
$DIMAZIN
 70
     0
  9
$DIMDSEP
 70
    44
  9
$DIMATFIT
 70
     3
  9
$DIMFRAC
 70
     0
  9
$DIMLDRBLK
  1

  9
$DIMLUNIT
 70
     2
  9
$DIMLWD
 70
    -2
  9
$DIMLWE
 70
    -2
  9
$DIMTMOVE
 70
     0
  9
$LUNITS
 70
     2
  9
$LUPREC
 70
     2
  9
$SKETCHINC
 40
1.0
  9
$FILLETRAD
 40
10.0
  9
$AUNITS
 70
     0
  9
$AUPREC
 70
     2
  9
$MENU
  1
.
  9
$ELEVATION
 40
0.0
  9
$PELEVATION
 40
0.0
  9
$THICKNESS
 40
0.0
  9
$LIMCHECK
 70
     0
  9
$CHAMFERA
 40
0.0
  9
$CHAMFERB
 40
0.0
  9
$CHAMFERC
 40
0.0
  9
$CHAMFERD
 40
0.0
  9
$SKPOLY
 70
     0
  9
$TDCREATE
 40
2460704.460303866
  9
$TDUCREATE
 40
2460704.335303866
  9
$TDUPDATE
 40
2460704.460303866
  9
$TDUUPDATE
 40
2460704.335303866
  9
$TDINDWG
 40
0.0000000116
  9
$TDUSRTIMER
 40
0.0000000116
  9
$USRTIMER
 70
     1
  9
$ANGBASE
 50
0.0
  9
$ANGDIR
 70
     0
  9
$PDMODE
 70
     0
  9
$PDSIZE
 40
-1.0
  9
$PLINEWID
 40
0.0
  9
$SPLFRAME
 70
     0
  9
$SPLINETYPE
 70
     6
  9
$SPLINESEGS
 70
     8
  9
$HANDSEED
  5
B7
  9
$SURFTAB1
 70
     6
  9
$SURFTAB2
 70
     6
  9
$SURFTYPE
 70
     6
  9
$SURFU
 70
     6
  9
$SURFV
 70
     6
  9
$UCSBASE
  2

  9
$UCSNAME
  2

  9
$UCSORG
 10
0.0
 20
0.0
 30
0.0
  9
$UCSXDIR
 10
1.0
 20
0.0
 30
0.0
  9
$UCSYDIR
 10
0.0
 20
1.0
 30
0.0
  9
$UCSORTHOREF
  2

  9
$UCSORTHOVIEW
 70
     0
  9
$UCSORGTOP
 10
0.0
 20
0.0
 30
0.0
  9
$UCSORGBOTTOM
 10
0.0
 20
0.0
 30
0.0
  9
$UCSORGLEFT
 10
0.0
 20
0.0
 30
0.0
  9
$UCSORGRIGHT
 10
0.0
 20
0.0
 30
0.0
  9
$UCSORGFRONT
 10
0.0
 20
0.0
 30
0.0
  9
$UCSORGBACK
 10
0.0
 20
0.0
 30
0.0
  9
$PUCSBASE
  2

  9
$PUCSNAME
  2

  9
$PUCSORG
 10
0.0
 20
0.0
 30
0.0
  9
$PUCSXDIR
 10
1.0
 20
0.0
 30
0.0
  9
$PUCSYDIR
 10
0.0
 20
1.0
 30
0.0
  9
$PUCSORTHOREF
  2

  9
$PUCSORTHOVIEW
 70
     0
  9
$PUCSORGTOP
 10
0.0
 20
0.0
 30
0.0
  9
$PUCSORGBOTTOM
 10
0.0
 20
0.0
 30
0.0
  9
$PUCSORGLEFT
 10
0.0
 20
0.0
 30
0.0
  9
$PUCSORGRIGHT
 10
0.0
 20
0.0
 30
0.0
  9
$PUCSORGFRONT
 10
0.0
 20
0.0
 30
0.0
  9
$PUCSORGBACK
 10
0.0
 20
0.0
 30
0.0
  9
$USERI1
 70
     0
  9
$USERI2
 70
     0
  9
$USERI3
 70
     0
  9
$USERI4
 70
     0
  9
$USERI5
 70
     0
  9
$USERR1
 40
0.0
  9
$USERR2
 40
0.0
  9
$USERR3
 40
0.0
  9
$USERR4
 40
0.0
  9
$USERR5
 40
0.0
  9
$WORLDVIEW
 70
     1
  9
$SHADEDGE
 70
     3
  9
$SHADEDIF
 70
    70
  9
$TILEMODE
 70
     1
  9
$MAXACTVP
 70
    64
  9
$PINSBASE
 10
0.0
 20
0.0
 30
0.0
  9
$PLIMCHECK
 70
     0
  9
$PEXTMIN
 10
1.0000000000E+20
 20
1.0000000000E+20
 30
1.0000000000E+20
  9
$PEXTMAX
 10
-1.0000000000E+20
 20
-1.0000000000E+20
 30
-1.0000000000E+20
  9
$PLIMMIN
 10
0.0
 20
0.0
  9
$PLIMMAX
 10
420.0
 20
297.0
  9
$UNITMODE
 70
     0
  9
$VISRETAIN
 70
     1
  9
$PLINEGEN
 70
     0
  9
$PSLTSCALE
 70
     1
  9
$TREEDEPTH
 70
  3020
  9
$CMLSTYLE
  2
Standard
  9
$CMLJUST
 70
     0
  9
$CMLSCALE
 40
20.0
  9
$PROXYGRAPHICS
 70
     1
  9
$MEASUREMENT
 70
     1
  9
$CELWEIGHT
370
    -1
  9
$ENDCAPS
280
     0
  9
$JOINSTYLE
280
     0
  9
$LWDISPLAY
290
     1
  9
$INSUNITS
 70
     4
  9
$HYPERLINKBASE
  1

  9
$STYLESHEET
  1

  9
$XEDIT
290
     1
  9
$CEPSNTYPE
380
     0
  9
$PSTYLEMODE
290
     1
  9
$FINGERPRINTGUID
  2
{4284ebf6-b7aa-4b57-9256-243cd601c894}
  9
$VERSIONGUID
  2
{FAEB1C32-E019-11D5-929B-00C0DF256EC4}
  9
$EXTNAMES
290
     1
  9
$PSVPSCALE
 40
0.0
  9
$OLESTARTUP
290
     0
  0
ENDSEC
  0
SECTION
  2
CLASSES
  0
CLASS
  1
ACDBDICTIONARYWDFLT
  2
AcDbDictionaryWithDefault
  3
ObjectDBX Classes
 90
        0
280
     0
281
     0
  0
CLASS
  1
VISUALSTYLE
  2
AcDbVisualStyle
  3
ObjectDBX Classes
 90
     4095
280
     0
281
     0
  0
CLASS
  1
MATERIAL
  2
AcDbMaterial
  3
ObjectDBX Classes
 90
     1153
280
     0
281
     0
  0
CLASS
  1
SCALE
  2
AcDbScale
  3
ObjectDBX Classes
 90
     1153
280
     0
281
     0
  0
CLASS
  1
TABLESTYLE
  2
AcDbTableStyle
  3
ObjectDBX Classes
 90
     4095
280
     0
281
     0
  0
CLASS
  1
MLEADERSTYLE
  2
AcDbMLeaderStyle
  3
ACDB_MLEADERSTYLE_CLASS
 90
     4095
280
     0
281
     0
  0
CLASS
  1
SUN
  2
AcDbSun
  3
SCENEOE
 90
     1153
280
     0
281
     0
  0
CLASS
  1
ACDBPLACEHOLDER
  2
AcDbPlaceHolder
  3
ObjectDBX Classes
 90
        0
280
     0
281
     0
  0
CLASS
  1
LAYOUT
  2
AcDbLayout
  3
ObjectDBX Classes
 90
        0
280
     0
281
     0
  0
ENDSEC
  0
SECTION
  2
TABLES
  0
TABLE
  2
VPORT
  5
8
330
0
100
AcDbSymbolTable
 70
     1
  0
VPORT
  5
29
330
8
100
AcDbSymbolTableRecord
100
AcDbViewportTableRecord
  2
*Active
 70
     0
 10
0.0
 20
0.0
 11
1.0
 21
1.0
 12
139.7
 22
107.95
 13
0.0
 23
0.0
 14
10.0
 24
10.0
 15
10.0
 25
10.0
 16
0.0
 26
0.0
 36
1.0
 17
0.0
 27
0.0
 37
0.0
 40
215.9
 41
1.2941176471
 42
50.0
 43
0.0
 44
0.0
 50
0.0
 51
0.0
 71
     0
 72
  2000
 73
     1
 74
     3
 75
     0
 76
     0
 77
     0
 78
     0
281
     0
 65
     1
110
0.0
120
0.0
130
0.0
111
1.0
121
0.0
131
0.0
112
0.0
122
1.0
132
0.0
 79
     0
146
0.0
  0
ENDTAB
  0
TABLE
  2
LTYPE
  5
5
330
0
100
AcDbSymbolTable
 70
     6
  0
LTYPE
  5
14
330
5
100
AcDbSymbolTableRecord
100
AcDbLinetypeTableRecord
  2
ByBlock
 70
     0
  3

 72
    65
 73
     0
 40
0.0
  0
LTYPE
  5
15
330
5
100
AcDbSymbolTableRecord
100
AcDbLinetypeTableRecord
  2
ByLayer
 70
     0
  3

 72
    65
 73
     0
 40
0.0
  0
LTYPE
  5
16
330
5
100
AcDbSymbolTableRecord
100
AcDbLinetypeTableRecord
  2
Continuous
 70
     0
  3
Solid line
 72
    65
 73
     0
 40
0.0
  0
LTYPE
  5
6E
330
5
100
AcDbSymbolTableRecord
100
AcDbLinetypeTableRecord
  2
HIDDEN
 70
     0
  3
Hidden __ __ __ __ __ __ __ __ __ __ __ __ __ __
 72
    65
 73
     2
 40
1.905
 49
1.27
 74
     0
 49
-0.635
 74
     0
  0
LTYPE
  5
6F
330
5
100
AcDbSymbolTableRecord
100
AcDbLinetypeTableRecord
  2
PHANTOM
 70
     0
  3
Phantom ______  __  __  ______  __  __  ______
 72
    65
 73
     6
 40
12.7
 49
6.35
 74
     0
 49
-1.27
 74
     0
 49
1.27
 74
     0
 49
-1.27
 74
     0
 49
1.27
 74
     0
 49
-1.27
 74
     0
  0
LTYPE
  5
70
330
5
100
AcDbSymbolTableRecord
100
AcDbLinetypeTableRecord
  2
CENTER
 70
     0
  3
Center ____ _ ____ _ ____ _ ____ _ ____ _ ____
 72
    65
 73
     4
 40
10.16
 49
6.35
 74
     0
 49
-1.27
 74
     0
 49
1.27
 74
     0
 49
-1.27
 74
     0
  0
LTYPE
  5
71
330
5
100
AcDbSymbolTableRecord
100
AcDbLinetypeTableRecord
  2
CENTERX2
 70
     0
  3
Center (2x) ________  __  ________  __  _____
 72
    65
 73
     4
 40
20.32
 49
12.7
 74
     0
 49
-2.54
 74
     0
 49
2.54
 74
     0
 49
-2.54
 74
     0
  0
LTYPE
  5
72
330
5
100
AcDbSymbolTableRecord
100
AcDbLinetypeTableRecord
  2
DOT2
 70
     0
  3
Dot (.5x) ........................................
 72
    65
 73
     2
 40
0.635
 49
0.0
 74
     0
 49
-0.635
 74
     0
  0
ENDTAB
  0
TABLE
  2
LAYER
  5
2
330
0
100
AcDbSymbolTable
 70
    17
  0
LAYER
  5
10
330
2
100
AcDbSymbolTableRecord
100
AcDbLayerTableRecord
  2
0
 70
     0
 62
     7
  6
Continuous
370
    -3
390
F
  0
LAYER
  5
73
330
2
100
AcDbSymbolTableRecord
100
AcDbLayerTableRecord
  2
FORMAT
 70
     0
 62
     7
  6
Continuous
370
    -3
390
F
  0
LAYER
  5
74
330
2
100
AcDbSymbolTableRecord
100
AcDbLayerTableRecord
  2
YARDIMCI_GEOMETRI
 70
     0
 62
    -6
  6
Continuous
290
     0
370
    -3
390
F
  0
LAYER
  5
75
330
2
100
AcDbSymbolTableRecord
100
AcDbLayerTableRecord
  2
SAYFA_CERCEVESI
 70
     0
 62
     7
  6
Continuous
370
    25
390
F
  0
LAYER
  5
76
330
2
100
AcDbSymbolTableRecord
100
AcDbLayerTableRecord
  2
ANTET
 70
     0
 62
     7
  6
Continuous
370
    -3
390
F
  0
LAYER
  5
77
330
2
100
AcDbSymbolTableRecord
100
AcDbLayerTableRecord
  2
OLCU
 70
     0
 62
   150
  6
Continuous
370
    -3
390
F
  0
LAYER
  5
78
330
2
100
AcDbSymbolTableRecord
100
AcDbLayerTableRecord
  2
METIN
 70
     0
 62
    96
  6
Continuous
370
    -3
390
F
  0
LAYER
  5
79
330
2
100
AcDbSymbolTableRecord
100
AcDbLayerTableRecord
  2
BALON
 70
     0
 62
     5
  6
Continuous
370
    -3
390
F
  0
LAYER
  5
7A
330
2
100
AcDbSymbolTableRecord
100
AcDbLayerTableRecord
  2
VURGU
 70
     0
 62
     7
  6
Continuous
370
    -3
390
F
  0
LAYER
  5
7B
330
2
100
AcDbSymbolTableRecord
100
AcDbLayerTableRecord
  2
SILIK
 70
     0
 62
     7
  6
Continuous
370
    -3
390
F
  0
LAYER
  5
7C
330
2
100
AcDbSymbolTableRecord
100
AcDbLayerTableRecord
  2
MODEL
 70
     0
 62
     7
  6
Continuous
370
    -3
390
F
  0
LAYER
  5
7D
330
2
100
AcDbSymbolTableRecord
100
AcDbLayerTableRecord
  2
DETAYLANDıRMA
 70
     0
 62
   190
  6
Continuous
370
    -3
390
F
  0
LAYER
  5
7E
330
2
100
AcDbSymbolTableRecord
100
AcDbLayerTableRecord
  2
TOLERANS
 70
     0
 62
   230
  6
Continuous
370
    -3
390
F
  0
LAYER
  5
7F
330
2
100
AcDbSymbolTableRecord
100
AcDbLayerTableRecord
  2
MERKEZ_CIZGILERI
 70
     0
 62
    30
  6
Continuous
370
    -3
390
F
  0
LAYER
  5
80
330
2
100
AcDbSymbolTableRecord
100
AcDbLayerTableRecord
  2
KESIT-DETAY_CIZGILERI
 70
     0
 62
     7
  6
Continuous
370
    -3
390
F
  0
LAYER
  5
81
330
2
100
AcDbSymbolTableRecord
100
AcDbLayerTableRecord
  2
\U+041E\U+0421\U+0415\U+0412\U+042B\U+0415
 70
     0
 62
     7
  6
Continuous
370
    -3
390
F
  0
LAYER
  5
82
330
2
100
AcDbSymbolTableRecord
100
AcDbLayerTableRecord
  2
\U+0412\U+041E\U+0414\U+042F\U+041D\U+042B\U+0415_\U+0417\U+041D\U+0410\U+041A\U+0418
 70
     0
 62
    11
  6
Continuous
370
    -3
390
F
  0
ENDTAB
  0
TABLE
  2
STYLE
  5
3
330
0
100
AcDbSymbolTable
 70
     1
  0
STYLE
  5
11
330
3
100
AcDbSymbolTableRecord
100
AcDbTextStyleTableRecord
  2
Standard
 70
     0
 40
0.0
 41
1.0
 50
0.0
 71
     0
 42
3.5
  3
txt
  4

  0
ENDTAB
  0
TABLE
  2
VIEW
  5
6
330
0
100
AcDbSymbolTable
 70
     0
  0
ENDTAB
  0
TABLE
  2
UCS
  5
7
330
0
100
AcDbSymbolTable
 70
     0
  0
ENDTAB
  0
TABLE
  2
APPID
  5
9
330
0
100
AcDbSymbolTable
 70
     1
  0
APPID
  5
12
330
9
100
AcDbSymbolTableRecord
100
AcDbRegAppTableRecord
  2
ACAD
 70
     0
  0
ENDTAB
  0
TABLE
  2
DIMSTYLE
  5
A
330
0
100
AcDbSymbolTable
 70
     1
100
AcDbDimStyleTable
  0
DIMSTYLE
105
27
330
A
100
AcDbSymbolTableRecord
100
AcDbDimStyleTableRecord
  2
ISO-25
 70
     0
 41
2.5
 42
0.625
 43
3.75
 44
1.25
 73
     0
 74
     0
 77
     1
 78
     8
140
2.5
141
2.5
143
0.0393700787
147
0.625
171
     3
172
     1
178
     0
271
     2
272
     2
274
     3
278
    44
283
     0
284
     8
340
11
  0
ENDTAB
  0
TABLE
  2
BLOCK_RECORD
  5
1
330
0
100
AcDbSymbolTable
 70
     2
  0
BLOCK_RECORD
  5
1F
330
1
100
AcDbSymbolTableRecord
100
AcDbBlockTableRecord
  2
*Model_Space
340
22
  0
BLOCK_RECORD
  5
1B
330
1
100
AcDbSymbolTableRecord
100
AcDbBlockTableRecord
  2
*Paper_Space
340
1E
  0
BLOCK_RECORD
  5
23
330
1
100
AcDbSymbolTableRecord
100
AcDbBlockTableRecord
  2
*Paper_Space0
340
26
  0
BLOCK_RECORD
  5
AA
330
1
100
AcDbSymbolTableRecord
100
AcDbBlockTableRecord
  2
SW_CENTERMARKSYMBOL_0
340
0
102
{BLKREFS
331
B5
102
}
  0
ENDTAB
  0
ENDSEC
  0
SECTION
  2
BLOCKS
  0
BLOCK
  5
20
330
1F
100
AcDbEntity
  8
0
100
AcDbBlockBegin
  2
*Model_Space
 70
     0
 10
0.0
 20
0.0
 30
0.0
  3
*Model_Space
  1

  0
ENDBLK
  5
21
330
1F
100
AcDbEntity
  8
0
100
AcDbBlockEnd
  0
BLOCK
  5
1C
330
1B
100
AcDbEntity
 67
     1
  8
0
100
AcDbBlockBegin
  2
*Paper_Space
 70
     0
 10
0.0
 20
0.0
 30
0.0
  3
*Paper_Space
  1

  0
ENDBLK
  5
1D
330
1B
100
AcDbEntity
 67
     1
  8
0
100
AcDbBlockEnd
  0
BLOCK
  5
24
330
23
100
AcDbEntity
  8
0
100
AcDbBlockBegin
  2
*Paper_Space0
 70
     0
 10
0.0
 20
0.0
 30
0.0
  3
*Paper_Space0
  1

  0
ENDBLK
  5
25
330
23
100
AcDbEntity
  8
0
100
AcDbBlockEnd
  0
BLOCK
  5
AB
330
AA
100
AcDbEntity
  8
0
100
AcDbBlockBegin
  2
SW_CENTERMARKSYMBOL_0
 70
     0
 10
0.0
 20
0.0
 30
0.0
  3
SW_CENTERMARKSYMBOL_0
  1

  0
LINE
  5
AD
330
AA
100
AcDbEntity
  8
FORMAT
 62
     0
100
AcDbLine
 10
0.0
 20
0.0
 30
0.0
 11
0.0
 21
2.5
 31
0.0
  0
LINE
  5
AE
330
AA
100
AcDbEntity
  8
FORMAT
 62
     0
100
AcDbLine
 10
0.0
 20
0.0
 30
0.0
 11
-2.5
 21
0.0
 31
0.0
  0
LINE
  5
AF
330
AA
100
AcDbEntity
  8
FORMAT
 62
     0
100
AcDbLine
 10
0.0
 20
0.0
 30
0.0
 11
0.0
 21
-2.5
 31
0.0
  0
LINE
  5
B0
330
AA
100
AcDbEntity
  8
FORMAT
 62
     0
100
AcDbLine
 10
0.0
 20
0.0
 30
0.0
 11
2.5
 21
0.0
 31
0.0
  0
LINE
  5
B1
330
AA
100
AcDbEntity
  8
FORMAT
 62
     0
100
AcDbLine
 10
0.0
 20
5.0
 30
0.0
 11
0.0
 21
227.5
 31
0.0
  0
LINE
  5
B2
330
AA
100
AcDbEntity
  8
FORMAT
 62
     0
100
AcDbLine
 10
-5.0
 20
0.0
 30
0.0
 11
-227.5
 21
0.0
 31
0.0
  0
LINE
  5
B3
330
AA
100
AcDbEntity
  8
FORMAT
 62
     0
100
AcDbLine
 10
0.0
 20
-5.0
 30
0.0
 11
0.0
 21
-227.5
 31
0.0
  0
LINE
  5
B4
330
AA
100
AcDbEntity
  8
FORMAT
 62
     0
100
AcDbLine
 10
5.0
 20
0.0
 30
0.0
 11
227.5
 21
0.0
 31
0.0
  0
ENDBLK
  5
AC
330
AA
100
AcDbEntity
  8
0
100
AcDbBlockEnd
  0
ENDSEC
  0
SECTION
  2
ENTITIES
  0
ARC
  5
83
330
1F
100
AcDbEntity
  8
0
  6
Continuous
 62
     7
370
    25
100
AcDbCircle
 10
132.0011599948
 20
386.8405934458
 30
0.0
 40
900.0
100
AcDbArc
 50
256.0011421164
 51
270.0
  0
ARC
  5
84
330
1F
100
AcDbEntity
  8
0
  6
Continuous
 62
     7
370
    25
100
AcDbCircle
 10
146.5765628395
 20
386.8405934458
 30
0.0
 40
900.0
100
AcDbArc
 50
270.0
 51
283.9988578836
  0
LINE
  5
85
330
1F
100
AcDbEntity
  8
0
  6
Continuous
 62
     7
370
    25
100
AcDbLine
 10
132.0011599948
 20
-513.1594065542
 30
0.0
 11
146.5765628395
 21
-513.1594065542
 31
0.0
  0
LINE
  5
86
330
1F
100
AcDbEntity
  8
0
  6
Continuous
 62
     7
370
    25
100
AcDbLine
 10
-85.7111385829
 20
-265.3147723369
 30
0.0
 11
-85.7111385829
 21
-486.4299001861
 31
0.0
  0
LINE
  5
87
330
1F
100
AcDbEntity
  8
0
  6
Continuous
 62
     7
370
    25
100
AcDbLine
 10
364.2888614171
 20
-486.4299001861
 30
0.0
 11
364.2888614171
 21
-265.3147723369
 31
0.0
  0
LINE
  5
88
330
1F
100
AcDbEntity
  8
0
  6
Continuous
 62
     7
370
    25
100
AcDbLine
 10
139.2888614171
 20
-486.4299001861
 30
0.0
 11
364.2888614171
 21
-486.4299001861
 31
0.0
  0
LINE
  5
89
330
1F
100
AcDbEntity
  8
0
  6
Continuous
 62
     7
370
    25
100
AcDbLine
 10
-85.7111385829
 20
-486.4299001861
 30
0.0
 11
139.2888614171
 21
-486.4299001861
 31
0.0
  0
LINE
  5
8A
330
1F
100
AcDbEntity
  8
0
  6
Continuous
 62
     7
370
    25
100
AcDbLine
 10
139.2888614171
 20
-265.3147723369
 30
0.0
 11
364.2888614171
 21
-265.3147723369
 31
0.0
  0
LINE
  5
8B
330
1F
100
AcDbEntity
  8
0
  6
Continuous
 62
     7
370
    25
100
AcDbLine
 10
-85.7111385829
 20
-265.3147723369
 30
0.0
 11
139.2888614171
 21
-265.3147723369
 31
0.0
  0
LINE
  5
8C
330
1F
100
AcDbEntity
  8
0
  6
Continuous
 62
     7
370
    25
100
AcDbLine
 10
364.2888614171
 20
441.9651189714
 30
0.0
 11
364.2888614171
 21
663.0802468206
 31
0.0
  0
LINE
  5
8D
330
1F
100
AcDbEntity
  8
0
  6
Continuous
 62
     7
370
    25
100
AcDbLine
 10
-85.7111385829
 20
663.0802468206
 30
0.0
 11
-85.7111385829
 21
441.9651189714
 31
0.0
  0
ARC
  5
8E
330
1F
100
AcDbEntity
  8
0
  6
Continuous
 62
     7
370
    25
100
AcDbCircle
 10
146.5765628395
 20
-210.1902468112
 30
0.0
 40
900.0000000000001
100
AcDbArc
 50
76.0011421164
 51
90.0
  0
ARC
  5
8F
330
1F
100
AcDbEntity
  8
0
  6
Continuous
 62
     7
370
    25
100
AcDbCircle
 10
132.0011599948
 20
-210.1902468112
 30
0.0
 40
900.0000000000001
100
AcDbArc
 50
90.0
 51
103.9988578836
  0
LINE
  5
90
330
1F
100
AcDbEntity
  8
0
  6
Continuous
 62
     7
370
    25
100
AcDbLine
 10
146.5765628395
 20
689.8097531888
 30
0.0
 11
132.0011599948
 21
689.8097531888
 31
0.0
  0
LINE
  5
91
330
1F
100
AcDbEntity
  8
0
  6
Continuous
 62
     7
370
    25
100
AcDbLine
 10
364.2888614171
 20
441.9651189714
 30
0.0
 11
-85.7111385829
 21
441.9651189714
 31
0.0
  0
LINE
  5
92
330
1F
100
AcDbEntity
  8
0
  6
Continuous
 62
     7
370
    25
100
AcDbLine
 10
364.2888614171
 20
663.0802468206
 30
0.0
 11
-85.7111385829
 21
663.0802468206
 31
0.0
  0
ARC
  5
93
330
1F
100
AcDbEntity
  8
0
  6
Continuous
 62
     7
370
    25
100
AcDbCircle
 10
1432.1810138938
 20
117.8770078912
 30
0.0
 40
900.0
100
AcDbArc
 50
166.0011421164
 51
180.0
  0
ARC
  5
94
330
1F
100
AcDbEntity
  8
0
  6
Continuous
 62
     7
370
    25
100
AcDbCircle
 10
1432.1810138938
 20
103.3016050465
 30
0.0
 40
900.0
100
AcDbArc
 50
180.0
 51
193.9988578836
  0
LINE
  5
95
330
1F
100
AcDbEntity
  8
0
  6
Continuous
 62
     7
370
    25
100
AcDbLine
 10
532.1810138938
 20
117.8770078912
 30
0.0
 11
532.1810138938
 21
103.3016050465
 31
0.0
  0
LINE
  5
96
330
1F
100
AcDbEntity
  8
0
  6
Continuous
 62
     7
370
    25
100
AcDbLine
 10
780.0256481111
 20
335.5893064689
 30
0.0
 11
558.9105202619
 21
335.5893064689
 31
0.0
  0
LINE
  5
97
330
1F
100
AcDbEntity
  8
0
  6
Continuous
 62
     7
370
    25
100
AcDbLine
 10
558.9105202619
 20
-114.4106935311
 30
0.0
 11
780.0256481111
 21
-114.4106935311
 31
0.0
  0
LINE
  5
98
330
1F
100
AcDbEntity
  8
0
  6
Continuous
 62
     7
370
    25
100
AcDbLine
 10
558.9105202619
 20
335.5893064689
 30
0.0
 11
558.9105202619
 21
-114.4106935311
 31
0.0
  0
LINE
  5
99
330
1F
100
AcDbEntity
  8
0
  6
Continuous
 62
     7
370
    25
100
AcDbLine
 10
780.0256481111
 20
335.5893064689
 30
0.0
 11
780.0256481111
 21
-114.4106935311
 31
0.0
  0
ARC
  5
9A
330
1F
100
AcDbEntity
  8
0
  6
Continuous
 62
     7
370
    25
100
AcDbCircle
 10
-1079.3629102153
 20
103.3016050465
 30
0.0
 40
900.0000000000001
100
AcDbArc
 50
346.0011421164
 51
0.0
  0
ARC
  5
9B
330
1F
100
AcDbEntity
  8
0
  6
Continuous
 62
     7
370
    25
100
AcDbCircle
 10
-1079.3629102153
 20
117.8770078912
 30
0.0
 40
900.0000000000001
100
AcDbArc
 50
0.0
 51
13.9988578836
  0
LINE
  5
9C
330
1F
100
AcDbEntity
  8
0
  6
Continuous
 62
     7
370
    25
100
AcDbLine
 10
-179.3629102153
 20
103.3016050465
 30
0.0
 11
-179.3629102153
 21
117.8770078912
 31
0.0
  0
LINE
  5
9D
330
1F
100
AcDbEntity
  8
0
  6
Continuous
 62
     7
370
    25
100
AcDbLine
 10
-427.2075444327
 20
-114.4106935311
 30
0.0
 11
-206.0924165835
 21
-114.4106935311
 31
0.0
  0
LINE
  5
9E
330
1F
100
AcDbEntity
  8
0
  6
Continuous
 62
     7
370
    25
100
AcDbLine
 10
-206.0924165835
 20
335.5893064689
 30
0.0
 11
-427.2075444327
 21
335.5893064689
 31
0.0
  0
LINE
  5
9F
330
1F
100
AcDbEntity
  8
0
  6
Continuous
 62
     7
370
    25
100
AcDbLine
 10
-206.0924165835
 20
-114.4106935311
 30
0.0
 11
-206.0924165835
 21
335.5893064689
 31
0.0
  0
LINE
  5
A0
330
1F
100
AcDbEntity
  8
0
  6
Continuous
 62
     7
370
    25
100
AcDbLine
 10
-427.2075444327
 20
-114.4106935311
 30
0.0
 11
-427.2075444327
 21
335.5893064689
 31
0.0
  0
LINE
  5
A1
330
1F
100
AcDbEntity
  8
0
  6
Continuous
 62
     7
370
    25
100
AcDbLine
 10
488.7741644526
 20
-535.5478838482
 30
0.0
 11
645.1261707777
 21
-625.8079758596
 31
0.0
  0
LINE
  5
A2
330
1F
100
AcDbEntity
  8
0
  6
Continuous
 62
     7
370
    25
100
AcDbLine
 10
870.1078856208
 20
-236.0859877883
 30
0.0
 11
713.7558792957
 21
-145.8258957769
 31
0.0
  0
LWPOLYLINE
  5
A3
330
1F
100
AcDbEntity
  8
0
  6
Continuous
 62
     7
370
    25
100
AcDbPolyline
 90
      160
 70
   128
 43
0.0
 10
601.2650218742
 20
-524.4085724868
 10
607.5504841934
 20
-520.636622526
 10
613.8261325093
 20
-516.5837024188
 10
620.0821681421
 20
-512.2561403189
 10
626.3088230347
 20
-507.6606932009
 10
632.4963750047
 20
-502.8045363098
 10
638.6351629242
 20
-497.6952519583
 10
644.7156018045
 20
-492.3408176873
 10
650.7281977621
 20
-486.7495938103
 10
656.6635628423
 20
-480.9303103597
 10
662.5124296769
 20
-474.8920534559
 10
668.2656659547
 20
-468.6442511201
 10
673.9142886802
 20
-462.1966585541
 10
679.4494781996
 20
-455.5593429082
 10
684.8625919716
 20
-448.7426675631
 10
690.1451780614
 20
-441.757275948
 10
695.2889883381
 20
-434.6140749227
 10
700.2859913524
 20
-427.3242177476
 10
705.1283848774
 20
-419.8990866695
 10
709.8086080904
 20
-412.3502751491
 10
714.3193533784
 20
-404.6895697594
 10
718.6535777482
 20
-396.9289317825
 10
722.8045138228
 20
-389.0804785334
 10
726.7656804083
 20
-381.1564644402
 10
730.5308926133
 20
-373.1692619103
 10
734.094271506
 20
-365.1313420122
 10
737.4502532931
 20
-357.0552550037
 10
740.5935980076
 20
-348.9536107361
 10
743.5193976897
 20
-340.839058965
 10
746.2230840506
 20
-332.7242695999
 10
748.700435605
 20
-324.621912921
 10
750.9475842624
 20
-316.5446397964
 10
752.9610213671
 20
-308.5050619295
 10
754.737603176
 20
-300.5157321665
 10
756.2745557674
 20
-292.5891248977
 10
757.5694793724
 20
-284.7376165791
 10
758.6203521215
 20
-276.9734664092
 10
759.4255332016
 20
-269.3087971867
 10
759.9837654181
 20
-261.7555763827
 10
760.2941771575
 20
-254.3255974549
 10
760.3562837489
 20
-247.0304614335
 10
760.1699882202
 20
-239.8815588072
 10
759.7355814496
 20
-232.890051739
 10
759.0537417119
 20
-226.0668566372
 10
758.1255336187
 20
-219.422627111
 10
756.952406457
 20
-212.9677373361
 10
755.5361919254
 20
-206.7122658566
 10
753.8791012749
 20
-200.6659798487
 10
751.9837218558
 20
-194.8383198701
 10
749.853013078
 20
-189.2383851203
 10
747.4903017904
 20
-183.8749192326
 10
744.8992770863
 20
-178.7562966221
 10
742.083984543
 20
-173.8905094107
 10
739.0488199057
 20
-169.2851549473
 10
735.7985222238
 20
-164.9474239463
 10
732.3381664511
 20
-160.8840892597
 10
728.6731555225
 20
-157.1014953023
 10
724.8092119174
 20
-153.6055481456
 10
720.7523687252
 20
-150.4017062959
 10
716.5089602249
 20
-147.4949721721
 10
712.0856119951
 20
-144.8898842945
 10
707.489230569
 20
-142.5905101984
 10
702.7269926506
 20
-140.6004400837
 10
697.8063339092
 20
-138.9227812085
 10
692.7349373691
 20
-137.5601530381
 10
687.5207214141
 20
-136.5146831546
 10
682.1718274235
 20
-135.788003935
 10
676.6966070602
 20
-135.3812500028
 10
671.1036092308
 20
-135.2950564559
 10
665.4015667377
 20
-135.5295578753
 10
659.5993826433
 20
-136.0843881149
 10
653.7061163692
 20
-136.9586808731
 10
647.7309695512
 20
-138.1510710456
 10
641.6832716717
 20
-139.6596968566
 10
635.5724654931
 20
-141.4822027661
 10
629.4080923138
 20
-143.6157431474
 10
623.1997770708
 20
-146.0569867304
 10
616.9572133114
 20
-148.8021218031
 10
610.6901480579
 20
-151.846862163
 10
604.4083665886
 20
-155.1864538094
 10
598.1216771597
 20
-158.8156823664
 10
591.8398956905
 20
-162.7288812245
 10
585.5728304369
 20
-166.919940388
 10
579.3302666775
 20
-171.3823160157
 10
573.1219514345
 20
-176.1090406377
 10
566.9575782553
 20
-181.0927340346
 10
560.8467720767
 20
-186.3256147608
 10
554.7990741972
 20
-191.7995122943
 10
548.8239273792
 20
-197.5058797937
 10
542.9306611051
 20
-203.4358074436
 10
537.1284770106
 20
-209.580036366
 10
531.4264345175
 20
-215.9289730767
 10
525.8334366882
 20
-222.4727044648
 10
520.3582163249
 20
-229.2010132704
 10
515.0093223342
 20
-236.1033940381
 10
509.7951063793
 20
-243.1690695195
 10
504.7237098392
 20
-250.3870075014
 10
499.8030510977
 20
-257.7459380302
 10
495.0408131793
 20
-265.2343710095
 10
490.4444317533
 20
-272.8406141402
 10
486.0210835235
 20
-280.5527911765
 10
481.7776750231
 20
-288.3588604695
 10
477.7208318309
 20
-296.2466337686
 10
473.8568882259
 20
-304.2037952522
 10
470.1918772973
 20
-312.2179207571
 10
466.7315215246
 20
-320.2764971777
 10
463.4812238426
 20
-328.3669420035
 10
460.4460592054
 20
-336.4766229654
 10
457.6307666621
 20
-344.5928777591
 10
455.0397419579
 20
-352.7030338164
 10
452.6770306703
 20
-360.7944280912
 10
450.5463218926
 20
-368.8544268319
 10
448.6509424735
 20
-376.8704453072
 10
446.993851823
 20
-384.8299674559
 10
445.5776372914
 20
-392.7205654289
 10
444.4045101296
 20
-400.5299189942
 10
443.4763020365
 20
-408.2458347733
 10
442.7944622987
 20
-415.8562652795
 10
442.3600555282
 20
-423.349327729
 10
442.1737599994
 20
-430.7133225944
 10
442.2358665908
 20
-437.9367518718
 10
442.5462783303
 20
-445.0083370338
 10
443.1045105467
 20
-451.9170366397
 10
443.9096916268
 20
-458.6520635751
 10
444.9605643759
 20
-465.202901895
 10
446.2554879809
 20
-471.559323243
 10
447.7924405724
 20
-477.7114028217
 10
449.5690223813
 20
-483.6495348891
 10
451.5824594859
 20
-489.3644477569
 10
453.8296081434
 20
-494.847218267
 10
456.3069596977
 20
-500.0892857242
 10
459.0106460586
 20
-505.0824652624
 10
461.9364457408
 20
-509.8189606245
 10
465.0797904552
 20
-514.2913763351
 10
468.4357722424
 20
-518.4927292482
 10
471.999151135
 20
-522.4164594498
 10
475.7643633401
 20
-526.056440501
 10
479.7255299256
 20
-529.4069890035
 10
483.8764660002
 20
-532.4628734735
 10
488.2106903699
 20
-535.2193225103
 10
492.7214356579
 20
-537.6720322457
 10
497.4016588709
 20
-539.8171730648
 10
502.2440523959
 20
-541.6513955848
 10
507.2410554103
 20
-543.171835885
 10
512.3848656869
 20
-544.3761199782
 10
517.6674517768
 20
-545.2623675179
 10
523.0805655487
 20
-545.8291947338
 10
528.6157550681
 20
-546.0757165924
 10
534.2643777937
 20
-546.0015481791
 10
540.0176140715
 20
-545.606805299
 10
545.8664809061
 20
-544.8921042964
 10
551.8018459862
 20
-543.858561092
 10
557.8144419439
 20
-542.5077894408
 10
563.8948808242
 20
-540.8418984124
 10
570.0336687436
 20
-538.863489098
 10
576.2212207136
 20
-536.5756505487
 10
582.4478756062
 20
-533.9819549529
 10
588.703911239
 20
-531.0864520584
 10
594.9795595549
 20
-527.8936628493
 10
601.2650218742
 20
-524.4085724868
  0
LWPOLYLINE
  5
A4
330
1F
100
AcDbEntity
  8
0
  6
Continuous
 62
     7
370
    25
100
AcDbPolyline
 90
       61
 70
   128
 43
0.0
 10
757.6170281993
 20
-614.6686644983
 10
763.9024905185
 20
-610.8967145374
 10
770.1781388345
 20
-606.8437944302
 10
776.4341744673
 20
-602.5162323303
 10
782.6608293599
 20
-597.9207852123
 10
788.8483813298
 20
-593.0646283212
 10
794.9871692493
 20
-587.9553439697
 10
801.0676081296
 20
-582.6009096987
 10
807.0802040872
 20
-577.0096858217
 10
813.0155691674
 20
-571.1904023711
 10
818.864436002
 20
-565.1521454673
 10
824.6176722798
 20
-558.9043431315
 10
830.2662950053
 20
-552.4567505655
 10
835.8014845248
 20
-545.8194349196
 10
841.2145982967
 20
-539.0027595745
 10
846.4971843865
 20
-532.0173679594
 10
851.6409946632
 20
-524.8741669341
 10
856.6379976775
 20
-517.5843097591
 10
861.4803912025
 20
-510.1591786809
 10
866.1606144155
 20
-502.6103671605
 10
870.6713597035
 20
-494.9496617708
 10
875.0055840733
 20
-487.1890237939
 10
879.1565201479
 20
-479.3405705448
 10
883.1176867334
 20
-471.4165564516
 10
886.8828989384
 20
-463.4293539217
 10
890.4462778311
 20
-455.3914340236
 10
893.8022596183
 20
-447.3153470152
 10
896.9456043327
 20
-439.2137027475
 10
899.8714040148
 20
-431.0991509764
 10
902.5750903757
 20
-422.9843616113
 10
905.0524419301
 20
-414.8820049324
 10
907.2995905875
 20
-406.8047318079
 10
909.3130276922
 20
-398.7651539409
 10
911.0896095011
 20
-390.775824178
 10
912.6265620925
 20
-382.8492169091
 10
913.9214856975
 20
-374.9977085906
 10
914.9723584466
 20
-367.2335584206
 10
915.7775395267
 20
-359.5688891981
 10
916.3357717432
 20
-352.0156683941
 10
916.6461834827
 20
-344.5856894663
 10
916.708290074
 20
-337.2905534449
 10
916.5219945453
 20
-330.1416508186
 10
916.0875877747
 20
-323.1501437504
 10
915.405748037
 20
-316.3269486487
 10
914.4775399438
 20
-309.6827191225
 10
913.3044127821
 20
-303.2278293475
 10
911.8881982505
 20
-296.972357868
 10
910.2311076
 20
-290.9260718601
 10
908.3357281809
 20
-285.0984118816
 10
906.2050194031
 20
-279.4984771317
 10
903.8423081155
 20
-274.135011244
 10
901.2512834114
 20
-269.0163886336
 10
898.4359908681
 20
-264.1506014221
 10
895.4008262308
 20
-259.5452469587
 10
892.1505285489
 20
-255.2075159577
 10
888.6901727762
 20
-251.1441812711
 10
885.0251618476
 20
-247.3615873137
 10
881.1612182425
 20
-243.865640157
 10
877.1043750503
 20
-240.6617983073
 10
872.86096655
 20
-237.7550641835
 10
870.1078856208
 20
-236.0859877883
  0
LWPOLYLINE
  5
A5
330
1F
100
AcDbEntity
  8
0
  6
Continuous
 62
     7
370
    25
100
AcDbPolyline
 90
       21
 70
   128
 43
0.0
 10
645.1261707777
 20
-625.8079758596
 10
649.0734419831
 20
-627.9321242571
 10
653.753665196
 20
-630.0772650762
 10
658.5960587211
 20
-631.9114875962
 10
663.5930617354
 20
-633.4319278964
 10
668.7368720121
 20
-634.6362119896
 10
674.0194581019
 20
-635.5224595294
 10
679.4325718738
 20
-636.0892867452
 10
684.9677613932
 20
-636.3358086038
 10
690.6163841188
 20
-636.2616401905
 10
696.3696203966
 20
-635.8668973104
 10
702.2184872312
 20
-635.1521963078
 10
708.1538523113
 20
-634.1186531034
 10
714.166448269
 20
-632.7678814522
 10
720.2468871493
 20
-631.1019904239
 10
726.3856750687
 20
-629.1235811094
 10
732.5732270387
 20
-626.8357425601
 10
738.7998819313
 20
-624.2420469643
 10
745.0559175641
 20
-621.3465440699
 10
751.3315658801
 20
-618.1537548607
 10
757.6170281993
 20
-614.6686644983
  0
LWPOLYLINE
  5
A6
330
1F
100
AcDbEntity
  8
0
  6
Continuous
 62
     7
370
    25
100
AcDbPolyline
 90
      150
 70
   128
 43
0.0
 10
601.2650218742
 20
-502.6069328095
 10
607.1761802623
 20
-499.0505497441
 10
613.0768288266
 20
-495.2126018705
 10
618.9564764291
 20
-491.0999129199
 10
624.8046692711
 20
-486.7197951033
 10
630.611009479
 20
-482.0800361103
 10
636.3651735918
 20
-477.188885263
 10
642.0569309159
 20
-472.0550388492
 10
647.6761617142
 20
-466.6876246604
 10
653.2128751997
 20
-461.0961857632
 10
658.6572272976
 20
-455.2906635319
 10
663.9995381487
 20
-449.2813799731
 10
669.2303093193
 20
-443.0790193738
 10
674.340240689
 20
-436.6946093047
 10
679.3202469864
 20
-430.139501014
 10
684.161473942
 20
-423.4253492449
 10
688.855314031
 20
-416.5640915144
 10
693.393421777
 20
-409.5679268882
 10
697.76772859
 20
-402.4492942918
 10
701.9704571121
 20
-395.2208503941
 10
705.9941350454
 20
-387.8954471046
 10
709.8316084374
 20
-380.486108723
 10
713.4760544003
 20
-373.0060087826
 10
716.9209932424
 20
-365.4684466281
 10
720.160299988
 20
-357.8868237699
 10
723.188215268
 20
-350.2746200568
 10
725.9993555595
 20
-342.6453697092
 10
728.5887227576
 20
-335.0126372559
 10
730.9517130619
 20
-327.3899934165
 10
733.084125162
 20
-319.7909909736
 10
734.9821677069
 20
-312.2291406764
 10
736.6424660463
 20
-304.7178872186
 10
738.0620682302
 20
-297.2705853348
 10
739.2384502579
 20
-289.9004760559
 10
740.1695205649
 20
-282.6206631674
 10
740.8536237424
 20
-275.4440899109
 10
741.2895434797
 20
-268.3835159716
 10
741.4765047275
 20
-261.4514947925
 10
741.4141750755
 20
-254.6603512542
 10
741.1026653437
 20
-248.0221597621
 10
740.5425293848
 20
-241.5487227784
 10
739.7347631002
 20
-235.2515498378
 10
738.6808026689
 20
-229.1418370841
 10
737.3825219941
 20
-223.2304473634
 10
735.8422293714
 20
-217.5278909112
 10
734.0626633849
 20
-212.0443066645
 10
732.0469880379
 20
-206.7894442361
 10
729.7987871278
 20
-201.7726465796
 10
727.3220578736
 20
-197.0028333782
 10
724.6212038096
 20
-192.4884851857
 10
721.7010269558
 20
-188.2376283484
 10
718.56671928
 20
-184.2578207347
 10
715.2238534669
 20
-180.5561382972
 10
711.6783730099
 20
-177.1391624922
 10
707.9365816439
 20
-174.0129685781
 10
704.0051321375
 20
-171.1831148135
 10
699.8910144642
 20
-168.6546325751
 10
695.6015433753
 20
-166.4320174121
 10
691.1443453938
 20
-164.5192210532
 10
686.5273452551
 20
-162.9196443805
 10
681.7587518169
 20
-161.6361313828
 10
676.8470434642
 20
-160.6709640996
 10
671.8009530354
 20
-160.0258585629
 10
666.6294522951
 20
-159.701961747
 10
661.3417359828
 20
-159.6998495284
 10
655.9472054652
 20
-160.0195256627
 10
650.4554520208
 20
-160.6604217774
 10
644.8762397866
 20
-161.6213983826
 10
639.2194883985
 20
-162.9007468968
 10
633.4952553539
 20
-164.4961926853
 10
627.7137181304
 20
-166.4048991034
 10
621.8851560902
 20
-168.623472541
 10
616.0199322038
 20
-171.1479684554
 10
610.1284746253
 20
-173.973898385
 10
604.2212581513
 20
-177.0962379295
 10
598.308785597
 20
-180.5094356831
 10
592.401569123
 20
-184.2074231048
 10
586.5101115445
 20
-188.1836253079
 10
580.6448876581
 20
-192.43097275
 10
574.8163256179
 20
-196.9419138023
 10
569.0347883944
 20
-201.7084281763
 10
563.3105553499
 20
-206.7220411833
 10
557.6538039618
 20
-211.9738388024
 10
552.0745917276
 20
-217.4544835291
 10
546.5828382831
 20
-223.154230977
 10
541.1883077655
 20
-229.0629472032
 10
535.9005914532
 20
-235.1701267259
 10
530.7290907129
 20
-241.4649112027
 10
525.6830002841
 20
-247.9361087366
 10
520.7712919315
 20
-254.5722137745
 10
516.0026984932
 20
-261.3614275638
 10
511.3856983545
 20
-268.2916791302
 10
506.928500373
 20
-275.3506467392
 10
502.6390292841
 20
-282.5257798041
 10
498.5249116109
 20
-289.8043212001
 10
494.5934621044
 20
-297.1733299463
 10
490.8516707384
 20
-304.6197042139
 10
487.3061902815
 20
-312.1302046214
 10
483.9633244684
 20
-319.691477773
 10
480.8290167926
 20
-327.290080001
 10
477.9088399387
 20
-334.9125012679
 10
475.2079858748
 20
-342.545189187
 10
472.7312566206
 20
-350.1745731176
 10
470.4830557104
 20
-357.7870882936
 10
468.4673803635
 20
-365.3691999406
 10
466.687814377
 20
-372.907427341
 10
465.1475217543
 20
-380.3883678015
 10
463.8492410794
 20
-387.798720483
 10
462.7952806481
 20
-395.1253100487
 10
461.9875143636
 20
-402.3551100899
 10
461.4273784047
 20
-409.475266286
 10
461.1158686728
 20
-416.4731192589
 10
461.0535390208
 20
-423.3362270815
 10
461.2405002687
 20
-430.0523873987
 10
461.676420006
 20
-436.6096591223
 10
462.3605231834
 20
-442.9963836626
 10
463.2915934905
 20
-449.2012056564
 10
464.4679755181
 20
-455.2130931566
 10
465.8875777021
 20
-461.0213572468
 10
467.5478760415
 20
-466.6156710451
 10
469.4459185864
 20
-471.986088066
 10
471.5783306864
 20
-477.1230599039
 10
473.9413209908
 20
-482.0174532103
 10
476.5306881889
 20
-486.6605659326
 10
479.3418284803
 20
-491.0441427858
 10
482.3697437603
 20
-495.1603899301
 10
485.6090505059
 20
-499.0019888285
 10
489.053989348
 20
-502.5621092582
 10
492.698435311
 20
-505.834421455
 10
496.535908703
 20
-508.8131073673
 10
500.5595866363
 20
-511.4928710002
 10
504.7623151584
 20
-513.8689478318
 10
509.1366219714
 20
-515.9371132842
 10
513.6747297173
 20
-517.6936902346
 10
518.3685698063
 20
-519.1355555534
 10
523.209796762
 20
-520.2601456567
 10
528.1898030594
 20
-521.0654610642
 10
533.2997344291
 20
-521.5500699546
 10
538.5305055996
 20
-521.7131107109
 10
543.8728164508
 20
-521.5542934527
 10
549.3171685487
 20
-521.0739005512
 10
554.8538820341
 20
-520.2727861275
 10
560.4731128325
 20
-519.1523745337
 10
566.1648701565
 20
-517.7146578209
 10
571.9190342694
 20
-515.9621921968
 10
577.7253744773
 20
-513.8980934814
 10
583.5735673192
 20
-511.5260315669
 10
589.4532149218
 20
-508.8502238928
 10
595.353863486
 20
-505.8754279474
 10
601.2650218742
 20
-502.6069328095
  0
LWPOLYLINE
  5
A7
330
1F
100
AcDbEntity
  8
0
  6
Continuous
 62
     7
370
    25
100
AcDbPolyline
 90
       39
 70
   128
 43
0.0
 10
741.4792952109
 20
-261.1104919328
 10
739.7301418344
 20
-262.1502468654
 10
733.8229253603
 20
-265.8482342871
 10
727.9314677818
 20
-269.8244364902
 10
722.0662438955
 20
-274.0717839322
 10
716.2376818552
 20
-278.5827249846
 10
710.4561446317
 20
-283.3492393585
 10
704.7319115872
 20
-288.3628523656
 10
699.0751601991
 20
-293.6146499847
 10
693.4959479649
 20
-299.0952947114
 10
688.0041945204
 20
-304.7950421593
 10
682.6096640028
 20
-310.7037583855
 10
677.3219476905
 20
-316.8109379082
 10
672.1504469502
 20
-323.105722385
 10
667.1043565214
 20
-329.5769199189
 10
662.1926481688
 20
-336.2130249568
 10
657.4240547306
 20
-343.0022387461
 10
652.8070545918
 20
-349.9324903124
 10
648.3498566103
 20
-356.9914579215
 10
644.0603855214
 20
-364.1665909864
 10
639.9462678482
 20
-371.4451323824
 10
636.0148183417
 20
-378.8141411285
 10
632.2730269757
 20
-386.2605153962
 10
628.7275465188
 20
-393.7710158036
 10
625.3846807057
 20
-401.3322889552
 10
622.2503730299
 20
-408.9308911832
 10
619.3301961761
 20
-416.5533124502
 10
616.6293421121
 20
-424.1860003693
 10
614.1526128579
 20
-431.8153842999
 10
611.9044119477
 20
-439.4278994758
 10
609.8887366008
 20
-447.0100111229
 10
608.1091706143
 20
-454.5482385233
 10
606.5688779916
 20
-462.0291789838
 10
605.2705973167
 20
-469.4395316652
 10
604.2166368854
 20
-476.766121231
 10
603.4088706009
 20
-483.9959212722
 10
602.848734642
 20
-491.1160774682
 10
602.5372249101
 20
-498.1139304412
 10
602.4721047747
 20
-501.9040988746
  0
CIRCLE
  5
A8
330
1F
100
AcDbEntity
  8
0
  6
Continuous
 62
     7
370
    25
100
AcDbCircle
 10
152.2110065838
 20
110.5893064689
 30
0.0
 40
225.0
  0
CIRCLE
  5
A9
330
1F
100
AcDbEntity
  8
0
  6
Continuous
 62
     7
370
    25
100
AcDbCircle
 10
152.2110065838
 20
110.5893064689
 30
0.0
 40
198.3
  0
INSERT
  5
B5
330
1F
100
AcDbEntity
  8
FORMAT
 62
     7
100
AcDbBlockReference
  2
SW_CENTERMARKSYMBOL_0
 10
152.2110065838
 20
110.5893064689
 30
0.0
  0
ENDSEC
  0
SECTION
  2
OBJECTS
  0
DICTIONARY
  5
C
330
0
100
AcDbDictionary
281
     1
  3
ACAD_GROUP
350
D
  3
ACAD_LAYOUT
350
1A
  3
ACAD_MLINESTYLE
350
17
  3
ACAD_PLOTSETTINGS
350
19
  3
ACAD_PLOTSTYLENAME
350
E
  3
ACAD_SCALELIST
350
47
  3
DWGPROPS
350
B6
  0
DICTIONARY
  5
D
102
{ACAD_REACTORS
330
C
102
}
330
C
100
AcDbDictionary
281
     1
  0
DICTIONARY
  5
1A
102
{ACAD_REACTORS
330
C
102
}
330
C
100
AcDbDictionary
281
     1
  3
Layout1
350
1E
  3
Layout2
350
26
  3
Model
350
22
  0
DICTIONARY
  5
17
102
{ACAD_REACTORS
330
C
102
}
330
C
100
AcDbDictionary
281
     1
  3
Standard
350
18
  0
DICTIONARY
  5
19
102
{ACAD_REACTORS
330
C
102
}
330
C
100
AcDbDictionary
281
     1
  0
ACDBDICTIONARYWDFLT
  5
E
102
{ACAD_REACTORS
330
C
102
}
330
C
100
AcDbDictionary
281
     1
  3
Normal
350
F
100
AcDbDictionaryWithDefault
340
F
  0
DICTIONARY
  5
47
102
{ACAD_REACTORS
330
C
102
}
330
C
100
AcDbDictionary
281
     1
  3
A0
350
48
  3
A1
350
49
  3
A2
350
4A
  3
A3
350
4B
  3
A4
350
4C
  3
A5
350
4D
  3
A6
350
4E
  3
A7
350
4F
  3
A8
350
50
  3
A9
350
51
  3
B0
350
52
  3
B1
350
53
  3
B2
350
54
  3
B3
350
55
  3
B4
350
56
  3
B5
350
57
  3
B6
350
58
  3
B7
350
59
  3
B8
350
5A
  3
B9
350
5B
  3
C0
350
5C
  3
C1
350
5D
  3
C2
350
5E
  3
C3
350
5F
  3
C4
350
60
  3
C5
350
61
  3
C6
350
62
  3
C7
350
63
  3
C8
350
64
  3
C9
350
65
  3
D0
350
66
  3
D1
350
67
  3
D2
350
68
  0
XRECORD
  5
B6
102
{ACAD_REACTORS
330
C
102
}
330
C
100
AcDbXrecord
280
     1
  1
DWGPROPS COOKIE
  2

  3

  4

  6

  7

  8
b.kav
  9

300
=
301
=
302
=
303
=
304
=
305
=
306
=
307
=
308
=
309
=
 40
0.0
 41
2460704.335303866
 42
2460704.335303866
  1

 90
        0
  0
LAYOUT
  5
1E
102
{ACAD_REACTORS
330
1A
102
}
330
1A
100
AcDbPlotSettings
  1

  2
none_device
  4

  6

 40
0.0
 41
0.0
 42
0.0
 43
0.0
 44
0.0
 45
0.0
 46
0.0
 47
0.0
 48
0.0
 49
0.0
140
0.0
141
0.0
142
1.0
143
1.0
 70
   688
 72
     1
 73
     0
 74
     5
  7

 75
    16
147
1.0
148
0.0
149
0.0
100
AcDbLayout
  1
Layout1
 70
     1
 71
     1
 10
0.0
 20
0.0
 11
420.0
 21
297.0
 12
0.0
 22
0.0
 32
0.0
 14
1.0000000000E+20
 24
1.0000000000E+20
 34
1.0000000000E+20
 15
-1.0000000000E+20
 25
-1.0000000000E+20
 35
-1.0000000000E+20
146
0.0
 13
0.0
 23
0.0
 33
0.0
 16
1.0
 26
0.0
 36
0.0
 17
0.0
 27
1.0
 37
0.0
 76
     0
330
1B
  0
LAYOUT
  5
26
102
{ACAD_REACTORS
330
1A
102
}
330
1A
100
AcDbPlotSettings
  1

  2
none_device
  4

  6

 40
0.0
 41
0.0
 42
0.0
 43
0.0
 44
0.0
 45
0.0
 46
0.0
 47
0.0
 48
0.0
 49
0.0
140
0.0
141
0.0
142
1.0
143
1.0
 70
   688
 72
     1
 73
     0
 74
     5
  7

 75
    16
147
1.0
148
0.0
149
0.0
100
AcDbLayout
  1
Layout2
 70
     1
 71
     2
 10
0.0
 20
0.0
 11
0.0
 21
0.0
 12
0.0
 22
0.0
 32
0.0
 14
0.0
 24
0.0
 34
0.0
 15
0.0
 25
0.0
 35
0.0
146
0.0
 13
0.0
 23
0.0
 33
0.0
 16
1.0
 26
0.0
 36
0.0
 17
0.0
 27
1.0
 37
0.0
 76
     0
330
23
  0
LAYOUT
  5
22
102
{ACAD_REACTORS
330
1A
102
}
330
1A
100
AcDbPlotSettings
  1

  2
none_device
  4
Letter_(8.50_x_11.00_Inches)
  6

 40
6.35
 41
6.35
 42
6.35000508
 43
6.35000508
 44
215.9
 45
279.4
 46
0.0
 47
0.0
 48
0.0
 49
0.0
140
0.0
141
0.0
142
1.0
143
1.0
 70
  1712
 72
     1
 73
     0
 74
     0
  7

 75
     0
147
1.0
148
0.0
149
0.0
100
AcDbLayout
  1
Model
 70
     1
 71
     0
 10
0.0
 20
0.0
 11
279.4
 21
215.9
 12
0.0
 22
0.0
 32
0.0
 14
0.0
 24
0.0
 34
0.0
 15
279.4
 25
215.9
 35
0.0
146
0.0
 13
0.0
 23
0.0
 33
0.0
 16
1.0
 26
0.0
 36
0.0
 17
0.0
 27
1.0
 37
0.0
 76
     0
330
1F
331
29
  0
MLINESTYLE
  5
18
102
{ACAD_REACTORS
330
17
102
}
330
17
100
AcDbMlineStyle
  2
Standard
 70
     0
  3

 62
   256
 51
90.0
 52
90.0
 71
     2
 49
0.5
 62
   256
  6
BYLAYER
 49
-0.5
 62
   256
  6
BYLAYER
  0
ACDBPLACEHOLDER
  5
F
102
{ACAD_REACTORS
330
E
102
}
330
E
  0
SCALE
  5
48
102
{ACAD_REACTORS
330
47
102
}
330
47
100
AcDbScale
 70
     0
300
1:1
140
1.0
141
1.0
290
     1
  0
SCALE
  5
49
102
{ACAD_REACTORS
330
47
102
}
330
47
100
AcDbScale
 70
     0
300
1:2
140
1.0
141
2.0
290
     0
  0
SCALE
  5
4A
102
{ACAD_REACTORS
330
47
102
}
330
47
100
AcDbScale
 70
     0
300
1:4
140
1.0
141
4.0
290
     0
  0
SCALE
  5
4B
102
{ACAD_REACTORS
330
47
102
}
330
47
100
AcDbScale
 70
     0
300
1:5
140
1.0
141
5.0
290
     0
  0
SCALE
  5
4C
102
{ACAD_REACTORS
330
47
102
}
330
47
100
AcDbScale
 70
     0
300
1:8
140
1.0
141
8.0
290
     0
  0
SCALE
  5
4D
102
{ACAD_REACTORS
330
47
102
}
330
47
100
AcDbScale
 70
     0
300
1:10
140
1.0
141
10.0
290
     0
  0
SCALE
  5
4E
102
{ACAD_REACTORS
330
47
102
}
330
47
100
AcDbScale
 70
     0
300
1:16
140
1.0
141
16.0
290
     0
  0
SCALE
  5
4F
102
{ACAD_REACTORS
330
47
102
}
330
47
100
AcDbScale
 70
     0
300
1:20
140
1.0
141
20.0
290
     0
  0
SCALE
  5
50
102
{ACAD_REACTORS
330
47
102
}
330
47
100
AcDbScale
 70
     0
300
1:30
140
1.0
141
30.0
290
     0
  0
SCALE
  5
51
102
{ACAD_REACTORS
330
47
102
}
330
47
100
AcDbScale
 70
     0
300
1:40
140
1.0
141
40.0
290
     0
  0
SCALE
  5
52
102
{ACAD_REACTORS
330
47
102
}
330
47
100
AcDbScale
 70
     0
300
1:50
140
1.0
141
50.0
290
     0
  0
SCALE
  5
53
102
{ACAD_REACTORS
330
47
102
}
330
47
100
AcDbScale
 70
     0
300
1:100
140
1.0
141
100.0
290
     0
  0
SCALE
  5
54
102
{ACAD_REACTORS
330
47
102
}
330
47
100
AcDbScale
 70
     0
300
2:1
140
2.0
141
1.0
290
     0
  0
SCALE
  5
55
102
{ACAD_REACTORS
330
47
102
}
330
47
100
AcDbScale
 70
     0
300
4:1
140
4.0
141
1.0
290
     0
  0
SCALE
  5
56
102
{ACAD_REACTORS
330
47
102
}
330
47
100
AcDbScale
 70
     0
300
8:1
140
8.0
141
1.0
290
     0
  0
SCALE
  5
57
102
{ACAD_REACTORS
330
47
102
}
330
47
100
AcDbScale
 70
     0
300
10:1
140
10.0
141
1.0
290
     0
  0
SCALE
  5
58
102
{ACAD_REACTORS
330
47
102
}
330
47
100
AcDbScale
 70
     0
300
100:1
140
100.0
141
1.0
290
     0
  0
SCALE
  5
59
102
{ACAD_REACTORS
330
47
102
}
330
47
100
AcDbScale
 70
     0
300
1/128" = 1'-0"
140
0.0078125
141
12.0
290
     0
  0
SCALE
  5
5A
102
{ACAD_REACTORS
330
47
102
}
330
47
100
AcDbScale
 70
     0
300
1/64" = 1'-0"
140
0.015625
141
12.0
290
     0
  0
SCALE
  5
5B
102
{ACAD_REACTORS
330
47
102
}
330
47
100
AcDbScale
 70
     0
300
1/32" = 1'-0"
140
0.03125
141
12.0
290
     0
  0
SCALE
  5
5C
102
{ACAD_REACTORS
330
47
102
}
330
47
100
AcDbScale
 70
     0
300
1/16" = 1'-0"
140
0.0625
141
12.0
290
     0
  0
SCALE
  5
5D
102
{ACAD_REACTORS
330
47
102
}
330
47
100
AcDbScale
 70
     0
300
3/32" = 1'-0"
140
0.09375
141
12.0
290
     0
  0
SCALE
  5
5E
102
{ACAD_REACTORS
330
47
102
}
330
47
100
AcDbScale
 70
     0
300
1/8" = 1'-0"
140
0.125
141
12.0
290
     0
  0
SCALE
  5
5F
102
{ACAD_REACTORS
330
47
102
}
330
47
100
AcDbScale
 70
     0
300
3/16" = 1'-0"
140
0.1875
141
12.0
290
     0
  0
SCALE
  5
60
102
{ACAD_REACTORS
330
47
102
}
330
47
100
AcDbScale
 70
     0
300
1/4" = 1'-0"
140
0.25
141
12.0
290
     0
  0
SCALE
  5
61
102
{ACAD_REACTORS
330
47
102
}
330
47
100
AcDbScale
 70
     0
300
3/8" = 1'-0"
140
0.375
141
12.0
290
     0
  0
SCALE
  5
62
102
{ACAD_REACTORS
330
47
102
}
330
47
100
AcDbScale
 70
     0
300
1/2" = 1'-0"
140
0.5
141
12.0
290
     0
  0
SCALE
  5
63
102
{ACAD_REACTORS
330
47
102
}
330
47
100
AcDbScale
 70
     0
300
3/4" = 1'-0"
140
0.75
141
12.0
290
     0
  0
SCALE
  5
64
102
{ACAD_REACTORS
330
47
102
}
330
47
100
AcDbScale
 70
     0
300
1" = 1'-0"
140
1.0
141
12.0
290
     0
  0
SCALE
  5
65
102
{ACAD_REACTORS
330
47
102
}
330
47
100
AcDbScale
 70
     0
300
1-1/2" = 1'-0"
140
1.5
141
12.0
290
     0
  0
SCALE
  5
66
102
{ACAD_REACTORS
330
47
102
}
330
47
100
AcDbScale
 70
     0
300
3" = 1'-0"
140
3.0
141
12.0
290
     0
  0
SCALE
  5
67
102
{ACAD_REACTORS
330
47
102
}
330
47
100
AcDbScale
 70
     0
300
6" = 1'-0"
140
6.0
141
12.0
290
     0
  0
SCALE
  5
68
102
{ACAD_REACTORS
330
47
102
}
330
47
100
AcDbScale
 70
     0
300
1'-0" = 1'-0"
140
12.0
141
12.0
290
     0
  0
ENDSEC
  0
EOF
